Overblog
Suivre ce blog Administration + Créer mon blog
9 septembre 2012 7 09 /09 /septembre /2012 09:24

Parcequ'à la base ce clip est en HD, j'ai eu du mal a comprendre comment le mettre en hd sur le net. Persuadé qu'il fallait que le fichier ne soit pas trop lourd pour l'uploader je m'etais limité en resolution.

Mais après visionnage d'autres clips sur youtube j'ai testé différentes choses.

 

 

 

 

Tout d'abord Vimeo : ce site présente un avantage et un inconvénient. l'avantage c'est que la vidéo est remplacée par ma version HD (donc meilleure résolution) sans affecter les stats etc. L'inconvénient c'est que le fichier de base est limité à 500mo. (La version HD max fait 1.7giga)

 

 

 


 

 

Et puis il y a youtube qui permet de gagner en visibilité, car plus répandu. Là aussi un avantage et un inconvénient. L'avantage c'est que je peux uploader ma version de 1.7 giga. C'est long mais c'est bon. Inconvénient : on doit obligatoirement recréer une vidéo, donc repartir de zero en terme de stat. Ca n'est pas bien grave car la version SD a été mis en ligne hier seulement.

 

Voila, c'est la découverte jusqu'au bout avec ce clip en HD (!) mais normalement c'est bon, on touche plus à rien !

Partager cet article
Repost0
2 septembre 2012 7 02 /09 /septembre /2012 17:56

Alors que pour les parents, et leurs enfants, cette nouvelle semaine est synonyme de rentrée, nous à la Backteam on fait une sortie.

Ce clip est le fruit d'un travail d'environ trois semaines, en fait on a pas trop compté, que vous avez pu suivre un peu sur ce blog.

Une semaine après la premiere mouture, nous avons apporté quelques modifications, minimes, suites aux critiques et j'expliquerai un peu plus longuement pourquoi etc...

bref, sans plus attendre, devil's way :

 

 

Partager cet article
Repost0
28 août 2012 2 28 /08 /août /2012 18:29

devil way project backteam 3Le premier montage est terminé, il y a encore quelques petites choses à retoucher, nous avons sélectionné quelques personnes de notre entourage pour des projections "test" (ca fait classe dit comme ca) et suivant les retours nous modifierons certains plans ou autre.
Cela signifie que la mise en ligne n'est pas loin et que vous aurez bientot l'occasion de découvrir le clip sur le net.

Partager cet article
Repost0
19 août 2012 7 19 /08 /août /2012 21:00

devil_way_project_backteam3.jpg

 

Meteo oblige, le tournage de devil's way a été interrompu par le temps plutot merdique de la semaine dernière. Nous avons repris cette semaine et il reste maintenant peu de plans a faire. A priori 3 scenes dont une clé.

La canicule de ce week end n'arrangeant rien, le tournage n'avancera pas durant cette période, cela n'est pas sans rappeller le tournage de gaf en 2003, été caniculaire là aussi.
Le montage avance donc pendant ce temps. Et c'est tant mieux, le clip prend forme, prend vie et nous voyons d'avantage les choses qui manquent ou qu'il faut refaire.

Plus d'information dès que possible.

Partager cet article
Repost0
11 août 2012 6 11 /08 /août /2012 12:11

devil_way_project_backteam2.jpg


Suite du tournage de Devil's Way, les choses se précisent petit à petit. La montage a lui aussi commencé, ce qui permet d'avoir une idée un peu plus concréte du projet. Envie de vous dire plein de choses et en même temps l'envie de ne rien vous dire pour vous laisser la surprise... Je vais opter pour la deuxième solution... ^^


Partager cet article
Repost0
9 août 2012 4 09 /08 /août /2012 19:51



Bonjour à toutezétouss,
 
C'est un projet de longue date qui aujourd'hui s'amorce pour, je l'espère, aboutir à une oeuvre clé de la Backteam. En effet, cet été, devil's way est à l'honneur. Vous êtes encore nombreux, chaque mois, à venir sur ce blog pour y lire la tablature (refaite depuis peu).
Le clip de Devil's Way a eu plusieurs ébauches. Au début, je voulais faire une sorte de dessin animé, puis une sorte d'amv. Finalement, ce sera un clip assez classique dans la forme mais on va essayer de la chiader au maximum.
Le blog sera l'occasion de teaser de manière régulière sur l'avancée du tournage et du montage.
stay tune !

steph

ps : attention cette photo est tirée d'un projet encore en developpement.


devil way project backteam

Partager cet article
Repost0
9 août 2010 1 09 /08 /août /2010 22:37

Devil's Way - Steph Back
  Download (free)

 

http://www.dogmazic.net/archive/RECTO/3384.jpg

 

A la base ce fut un concours organisé au sein du site de Beck, ou plutôt du forum.(voir le topic)

Chacun devait faire sa version de Devil's Way, une chanson du manga Beck que personne n'a entendu (puisqu'uniquement dans le manga papier, et pas dans l'adaptation animé).

La team Beck MCS a donc fait une compilation de 10 titres, en musique libre sur leur page dogmazic.

 

 

Mise à jour du 01/09/12 :

mon clip officiel, en HD et en grand angle, de mon Devil's Way.

 

 

avant ça :

 


 

 

Un gars a mis sur youtube ma version et celle de Sasuk. A en voir les commentaires et ceux de dogmazic, ma version plait a beaucoup de personne. Tant mieux. Et comme on me l'a souvent demandé, j'ai fait une vidéo où j'explique comment jouer ma version. (et c'est là qu'on se rend compte de la simplicité du morceau^^)

 

 

 


 

 

Je profite du référencement d'overblog, voici les paroles et la tab de Devil's Way, ma fanversion.

 

STEPH BACK : DEVIL'S WAY

==============================
Tab :

1/2 Step down
Verse : Em C Am D
Chorus : G B(3rd) Bm A
intro : Verse x 2 Chorus x 2
outro : G D Am C D
============================

accord_devil_way_stephback.jpg

accord_outro_devil_way_stephback.jpg

 

 

Lyrics :

C1


Em                Cm

I walk in the rain

                                   Am
Someone stole my brain

              D
And my umbrella
Em                   Cm
I always live in pain
                               Am
Little bone is my nickname
   D
I hate that

R1
G                                     C/B3rd
I came from the outer space
                                       A#m
And all humans kick my race
            A
It's not fair
G                                               C/B3rd
I don't care, I'm not running away
                                    A#m               A
Today I dare, this is it : My Devil's Way

C2
Another full moon sways,
everything is like yesterday
Some sunny day
I'm looking for money
I don't want to stay
They will have to pay

R2
And like Bowling for Columbine
I'm beginning to decline
In my head...
If I was you I would pray
'Cause you re gonna die today, the Devil's Way

[intermede/solo]

C3
I shot all these gays
They fall on the clay
YMC...yeah.
I shot all the strays
They will die anyway
Like I said

R3
You think Ive lost control
But I keep all my soul
I'm O-K
I put my gun away
and I take the Highway : My Devil's Way

C4
Cops enter the race
A smile is on my face
Famous death...
I'm not really sure
I think it's a pleasure
to go all the way

R4
I don't commit suicide
I see big, I see wide, in freeway
I don't care, I'm running away
I just dare, this is it : My Devil's way.

outro

=========================

 

-SOLO-

 

SOLO INTRO

e |--------3-5-3---------3-5-3--5-7-5-3-5-3-5-3-----------------------|
B |--3-5----------3-5--------------------------------------------------------|
G |-----------------------------------------------------------------------------|
D |-----------------------------------------------------------------------------|
A |------------------------------------------------------------------------------|
E |-----------------------------------------------------------------------------|


e|--3-3-3-5-3--3-5-3-3---3-3-5-3-3-5-3--2-3-2--2-3-2-0--|  X2
B|-----------------------------------------------------------------------|
G|-----------------------------------------------------------------------|
D|-----------------------------------------------------------------------|
A|-----------------------------------------------------------------------|
E|-----------------------------------------------------------------------|


e|--------5-3--------------3-5-5-3-------------3-5-5-3--5-5-5-7-5-3-5-3--------|
B|--3-5--------3-5-3-5-------------3-5-3-5-----------------------------------5------|
G|------------------------------------------------------------------------------------------|
D|------------------------------------------------------------------------------------------|
A|-------------------------------------------------------------------------------------------|
E|------------------------------------------------------------------------------------------|


e|---------------3-5-5-3----------------3-5-5-7--12-12-12-10-10-10-7-7-7-5-5-3---------|
B|--3-5-3-5---------------3-5-3-5------------------------------------------------------------5-----|
G|-------------------------------------------------------------------------------------------------------|
D|-------------------------------------------------------------------------------------------------------|
A|--------------------------------------------------------------------------------------------------------|
E|--------------------------------------------------------------------------------------------------------|


e|----------3-5-5-3---------------------------------------------------|
B|--3-5-3-5-----------------------------------------------------------|
G|-----------------------------------------------------------------------|
D|-----------------------------------------------------------------------|
A|-----------------------------------------------------------------------|
E|-----------------------------------------------------------------------|

 

 

 

SOLO AT 3.49


e|------------10-12-12-12-12----------10-12-12-12-12--15-15-14-15-14-12-------|
B|--10-12-------------------------10-12---------------------------------------------------------|
G|----------------------------------------------------------------------------------------------------|
D|----------------------------------------------------------------------------------------------------|
A|----------------------------------------------------------------------------------------------------|
E|----------------------------------------------------------------------------------------------------|


e|-------------10-12-12-12-12-------------10-12-12-12-12--------------------------|
B|--10-12--------------------------10-12---------------------------------------------------|
G|-----------------------------------------------------------------------------------------------|
D|-----------------------------------------------------------------------------------------------|
A|-----------------------------------------------------------------------------------------------|
E|-----------------------------------------------------------------------------------------------|


e|--17-17-15-15-14-15-14-17-15-14-14-12-12-10-12-12-12-10-12-10-----------|
B|--------------------------------------------------------------------------------------------12------|
G|------------------------------------------------------------------------------------------------------|
D|------------------------------------------------------------------------------------------------------|
A|------------------------------------------------------------------------------------------------------|
E|------------------------------------------------------------------------------------------------------|

 


SOLO AT  5.24

e|--3-3-2-3-3-2--2-3-2-0-----0-0-0-0-3-3-2-0----------------|
B|-----------------------------------------------------------------------|
G|-----------------------------------------------------------------------|
D|-----------------------------------------------------------------------|
A|-----------------------------------------------------------------------|
E|-----------------------------------------------------------------------|


e|--------------3-5-5-3---------------3-5-5-7--12-10-------------------------------|
B|--3-5-3-5--------------3-5-3-5------------------------12--10-8-10-8-----------|
G|----------------------------------------------------------------------------------9------|
D|------------------------------------------------------------------------------------------|
A|-------------------------------------------------------------------------------------------|
E|------------------------------------------------------------------------------------------|


e|--------------3-5-5-3--------------3-5-5---12-12-12-10-10-10-----------------------------|
B|--3-5-3-5-------------3-5-3-5----------------------------------------12-12-12-10-10-8-8-|
G|-------------------------------------------------------------------------------------------------------|
D|-------------------------------------------------------------------------------------------------------|
A|--------------------------------------------------------------------------------------------------------|
E|-------------------------------------------------------------------------------------------------------|

 

 

 

SOLO OUTRO 6.00

e|---------------------------------------------------------------------------|
B|-8-8-8-10-10-8-10-10-8-10--10-10-8-8-10-12-10-8-8----|
G|--------------------------------------------------------------------------|
D|--------------------------------------------------------------------------|
A|---------------------------------------------------------------------------|
E|---------------------------------------------------------------------------|


e|-------------------------------------------------------------------------------|
B|--10-12-10-10-8-10-10-8-10--10-10-8-8-10-12-10-8-8------|
G|------------------------------------------------------------------------------|
D|------------------------------------------------------------------------------|
A|-------------------------------------------------------------------------------|
E|-------------------------------------------------------------------------------|

e|------------------------------------------------------------------------------------------------------|
B|--10-12-10-10-8-10-10-8-10--12-12-12-10-10-10------------------------------------|
G|--------------------------------------------------------------------12-12-12-10-10-8-8-------|
D|------------------------------------------------------------------------------------------------------|
A|-------------------------------------------------------------------------------------------------------|
E|-------------------------------------------------------------------------------------------------------|

 

 

 

ELECTRIC GUITAR AT 6.18

e|-----------------------------------------------------------------------| X2
B|-----------------------------------------------------------------------|
G|-0-2-4-2-2-0-2-2-0-2--2-2-0-0-2-4-2-0-0------------------|
D|-----------------------------------------------------------------------|
A|------------------------------------------------------------------------|
E|-----------------------------------------------------------------------|


e|---------------------------------------------------------------------------------| X2
B|-08-10-12-10-10-8-10-10-8-10--10-10-8-8-10-12-10-8-8-----|
G|--------------------------------------------------------------------------------|
D|--------------------------------------------------------------------------------|
A|---------------------------------------------------------------------------------|
E|---------------------------------------------------------------------------------|


e|--12-10-10-10-------10-------10-12---------10-12-12-15-17-19-17-15-15--|
B|----------------------12------12-----------12---------------------------------------------|
G|----------------------------------------------------------------------------------------------|
D|----------------------------------------------------------------------------------------------|
A|-----------------------------------------------------------------------------------------------|
E|-----------------------------------------------------------------------------------------------|


e|-17-19-17-17-15-17-17-15-17-17-17-15-15-17-19-17-15-15-----| X3
B|--------------------------------------------------------------------------------------|
G|--------------------------------------------------------------------------------------|
D|--------------------------------------------------------------------------------------|
A|---------------------------------------------------------------------------------------|
E|--------------------------------------------------------------------------------------|

 

 

=============================

 

 

j'ai vu que certains cherchaient une traduction de mes paroles. La voici :



C1

Je marche sous la pluie

Quelqu'un m'a volé mon cerveau
Et mon parapluie
J'ai toujours souffert
"little bone"* est mon surnom
Je le hais.


R1
Je viens de l'espace
Et les humains chasse ma race
Ce n'est pas juste
Je m'en fous, je ne fuis pas
Aujourd'hui j'ose, la voici : ma Devil's Way **

C2
Une nouvelle pleine lune,
Tout est comme hier
Des jours ensoleillés
Je veux gagner de l'argent
Je ne veux pas rester
Ils doivent payer


R2
Et comme dans Bowling for Columbine***
Je commence à délirer
Dans ma tête...

Si j'étais vous, je prierais
Car vous aller mourir aujourd'hui, la Devil's Way

C3
J'ai tué tous ces gays
Ils tombent par terre
YMC...yeah****
J'ai tué tous ces chiens errants,
Ils devaient mourir de toutes façons
Comme je l'avais dit

R3
Vous pensez que j'ai perdu le contrôle
Mais je garde toute mon âme
Je vais bien
Je mets mon flingue de coté
Et je prends l'autoroute, ma Devil's Way

C4
Les flics me poursuivent
Un sourire illumine mon visage
Une mort célèbre...
Je ne suis pas sur
Je pense que ce doit être un plaisir
de s'en aller

R4
Je ne me suicide pas
Je vois grand, je vois large, sur l'autoroute.
Je m'en fous, je ne fuis pas
Aujourd'hui j'ose, la voici : ma Devil's Way

* little bone pourrait etre traduit par "petit os" ou "petit corps" l'idée c'est d'imaginer quelqu'un de petit, de fragile...

** on pourrait traduire devil's way  par : la voie du diable
*** Bownling for Columbine est un documentaire de Michael Moore sur des jeunes qui ont tué des gens dans leur lycée à  Columbine. Avant de faire cet acte, ils jouaient au Bowling, d'où le titre du documentaire.
**** YMC yeah est un jeu de mot avec YMCA, tube planétaire des Village People, groupe phare souvent associé aux homosexuels. 

Partager cet article
Repost0

sortie : Devil's Way

Rechercher

Best Of 2.0

radio backteam

Archives

Release en streaming

BEST OF

en attendant le retablissement de dogmazic

radio backteam

 

 

Bside.jpg

persistance retinienne steph back cover front

14days---avant---front.jpg

trip100.jpg

mal100 compro100
dw100

lovetrip2.jpg

les radios

 radio musique libre

 

 

radiocalm.png

 

 

 

radio backteam

Work In (No) Progress

DVD 1CQriT : 0%

DVD 4 Ass : 0%

DVD michel defaillant : 0%

Dexter Fanart : 10%

Ce n'est pas une blague ! facebook-logo.png
vous êtes le



visiteur !!